精品钢琴-乐器曲谱-乐器知识-乐器大全

精品钢琴-乐器曲谱-乐器知识-乐器大全

http://www.jpgq.net

菜单导航
什么是文本六线谱文本六线谱是在计算机上用ASCII码的形式记录吉他曲谱的方法。它是在Internet这种特殊的传播媒体上

什么是文本六线谱?怎么看吉他谱?_吉他入门

作者: 乐器大全 发布时间: 2019年09月19日 13:41:06

  什么是文本六线谱

  文本六线谱是在计算机上用ASCII码的形式记录吉他曲谱的方法。它是在Internet这种特殊的传播媒体上发展起来的。以图象格式存在的正规曲谱制作起来比较麻烦,而且对于某些不同操作系统的计算机还存在浏览上的限制。而文本六线谱是由文本字符和数字写成,任何计算机都可浏览下载,更方便互联网上吉他爱好者的相互交流。尽管没有正规的曲谱看上去完美,但文本六线谱的歌曲资源实在是太多了,现在几乎所有提供吉他曲谱的网站都在使用文本六线谱,可以说你想要找什么歌的吉他谱,都可以在网上找到。

  文本六线谱能表现什么?

  文本六线谱能告诉你应该弹哪些音,也就是音发自吉他上的哪根弦,哪个品位。

  文本六线谱还能告诉你哪些地方需要使用打弦、拉弦、推弦、滑弦、泛音和颤音等技巧。

  文本六线谱还能告诉你这首歌使用的是什么调弦方法,如果没有专门指出,则默认的是吉他的标准调弦。如果需要使用品夹,文本六线谱也会标出。

  文本六线谱还能告诉你歌曲的节奏,音符的长短。

  但音符的准确时值,文本六线谱却无法表现,所以我们就来看看下面

  文本六线谱不能表现什么?

  文本六线谱通常不能够准确的表现音符的时值,所以这需要你在弹奏曲子之前,边看六线谱边听这首歌曲的录音,以找准节奏。

  文本六线谱也不能够告诉你应该用哪根手指去弹哪个音。

  文本六线谱通常也不会告诉你拨弦和扫弦的细节,要由你自己来决定哪些地方该用上拨,哪些地方该用下拨。

  怎样读识文本六线谱

  文本六线谱的基本符号

  文本六线谱读识起来很简单。如果你自己扒了一首歌曲的吉他伴奏或SOLO,想用文本来记录成六线谱,那同样是很容易的。基本原理是这样的:

  先要打出六条线,这就表示吉他的六根线。在上方的是高音弦,下方是低音弦。下面就是基本的六线谱谱线,没有任何音符,只有六根空弦,左边是每根弦的音高名称。

  E----------------------------------------------------------------

  B----------------------------------------------------------------

  G----------------------------------------------------------------

  D----------------------------------------------------------------

  A----------------------------------------------------------------

  E----------------------------------------------------------------

  在线上写出的数字表示你的左手应该在此弦上按的哪个品位。如果是0的话,表示弹奏空弦,也就是开放弦。弹奏音的顺序是由?u>笙蛴摇O旅嬲庖惶趿咂椎嗥鹄从Ω檬谴拥鸵鬍弦的开放弦开始,每个音升高一个品位,顺序弹奏出E F F# G G# A 这几个音。

  E----------------------------------------------------------------

  B----------------------------------------------------------------

  G----------------------------------------------------------------

  D----------------------------------------------------------------

  A----------------------------------------------------------------

  E---0--1--2--3--4--5---------------------------------------------

  OK ,现在我们来看一下同时弹奏多个音。如果两个或更多的音要同时弹奏,在写的时候就要把音的数字并列在一列,理解起来应该是和五线谱或标准六线谱一样的。下面这个例子就是一个G的大横按和弦,这表示此和弦的所有音要同时弹奏。

  E----3-----------------------------------------------------------

  B----3-----------------------------------------------------------

  G----4-----------------------------------------------------------

  D----5-----------------------------------------------------------

  A----5-----------------------------------------------------------

  E----3-----------------------------------------------------------

  但有时你也会遇到和弦是象下面这样写出的:

  E--------3-------------------------------------------------------

  B-------3--------------------------------------------------------

  G------4---------------------------------------------------------

  D-----5----------------------------------------------------------

  A----5-----------------------------------------------------------

  E---3------------------------------------------------------------

  从六线谱上的数字来看,我们知道这与上面是同一个G和弦,左手的按法是一样的。但弹奏方法所不同的是,这个和弦要从低音E弦开始向下顺序扫拨弹奏,每根弦都要比前一根弦延迟一小会儿拨击,虽然声音不是同时发出,但当扫完最后一根弦时,六根弦仍会共鸣。下面这个例子还是同样的G和弦,但你会注意到数字之间的距离比上个和弦要大些,所以这次你就需要将每根弦逐一地分别弹奏,而不是从上至下扫拨下来了。

  E------------------3---------------------------------------------

  B---------------3-----3------------------------------------------

  G------------4-----------4---------------------------------------

  D---------5-----------------5------------------------------------

  A------5-----------------------5---------------------------------

  E---3-----------------------------3------------------------------

声明:本媒体部分图片、文章来源于网络,版权归原作者所有,如有侵权,请与我联系删除。